  0
SECTION
  2
HEADER
  9
$ACADVER
  1
AC1009
  9
$INSBASE
 10
0.0
 20
0.0
 30
0.0
  9
$EXTMIN
 10
0.0
 20
0.0
 30
0.0
  9
$EXTMAX
 10
0.0
 20
0.0
 30
0.0
  0
ENDSEC
  0
SECTION
  2
TABLES
  0
TABLE
  2
VPORT
 70
0
  0
ENDTAB
  0
TABLE
  2
LTYPE
 70
1
  0
LTYPE
  2
CONTINUOUS
 70
0
  3
Solid line
 72
65
 73
0
 40
0.0
  0
ENDTAB
  0
TABLE
  2
LAYER
 70
1
  0
LAYER
  2
0
 70
64
 62
7
  6
continuous
  0
ENDTAB
  0
TABLE
  2
STYLE
 70
1
  0
STYLE
  2
STANDARD
 70
0
 40
0
 41
1.0
 50
0.0
 71
0
 42
1
 3
ARIAL.TTF
 4

  0
ENDTAB
  0
TABLE
  2
VIEW
 70
0
  0
ENDTAB
  0
ENDSEC
  0
SECTION
  2
BLOCKS
  0
BLOCK
  8
0
  2
PART__FEATURE
 70
0
 10
0.0
 20
0.0
 30
0.0
  3
PART__FEATURE
  0
CIRCLE
  8
0
 62
0
 10
-3.375
 20
-10.0
 30
0.0
 40
2.15
  0
LINE
  8
0
 62
0
 10
0.275000000158
 20
-8.86543289934
 30
0.0
 11
0.275000004879
 21
-11.1345671179
 31
0.0
  0
ARC
  8
0
 62
0
 10
3.27500000488
 20
-11.1345671116
 30
0.0
 40
2.99999999999
 50
-180.0
 51
-135.0
  0
LINE
  8
0
 62
0
 10
1.15367966132
 20
-13.2558874552
 30
0.0
 11
3.49345669211
 21
-15.595664486
 31
0.0
  0
ARC
  8
0
 62
0
 10
4.04499998143
 20
-15.0441211966
 30
0.0
 40
0.780000000001
 50
-135.0
 51
-2.06500295844e-05
  0
LINE
  8
0
 62
0
 10
4.82499998143
 20
-15.0441214777
 30
0.0
 11
4.82500076294
 21
-12.8749998919
 31
0.0
  0
ARC
  8
0
 62
0
 10
5.12500076294
 20
-12.875
 30
0.0
 40
0.299999999998
 50
89.9999999996
 51
179.99997935
  0
LINE
  8
0
 62
0
 10
5.12500076294
 20
-12.575
 30
0.0
 11
5.825
 21
-12.575
 31
0.0
  0
ARC
  8
0
 62
0
 10
5.825
 20
-13.375
 30
0.0
 40
0.8
 50
-0.0
 51
90.0
  0
LINE
  8
0
 62
0
 10
6.625
 20
-13.375
 30
0.0
 11
6.625
 21
-18.0
 31
0.0
  0
ARC
  8
0
 62
0
 10
4.625
 20
-18.0
 30
0.0
 40
2.0
 50
-90.0
 51
0.0
  0
LINE
  8
0
 62
0
 10
4.625
 20
-20.0
 30
0.0
 11
0.0
 21
-20.0
 31
0.0
  0
ARC
  8
0
 62
0
 10
-9.09711195263e-12
 20
-19.2
 30
0.0
 40
0.799999999995
 50
180.0
 51
-89.9999999993
  0
LINE
  8
0
 62
0
 10
-0.799999999999
 20
-19.2
 30
0.0
 11
-0.799999999999
 21
-18.5000007629
 31
0.0
  0
ARC
  8
0
 62
0
 10
-0.5
 20
-18.5000007629
 30
0.0
 40
0.300000000001
 50
90.0000208024
 51
-180.0
  0
LINE
  8
0
 62
0
 10
-0.500000108921
 20
-18.2000007629
 30
0.0
 11
1.6691214738
 21
-18.1999999754
 31
0.0
  0
ARC
  8
0
 62
0
 10
1.66912119061
 20
-17.4199999754
 30
0.0
 40
0.779999999999
 50
-89.9999791975
 51
44.9999999999
  0
LINE
  8
0
 62
0
 10
2.22066447993
 20
-16.8684566861
 30
0.0
 11
-0.119112549537
 21
-14.5286796566
 31
0.0
  0
ARC
  8
0
 62
0
 10
-2.2404328931
 20
-16.6500000002
 30
0.0
 40
3.00000000001
 50
45.0000000001
 51
90.0000001192
  0
LINE
  8
0
 62
0
 10
-2.24043289934
 20
-13.6500000002
 30
0.0
 11
-4.50956711787
 21
-13.6500000049
 31
0.0
  0
ARC
  8
0
 62
0
 10
-4.50956711162
 20
-16.6500000049
 30
0.0
 40
3.00000000001
 50
90.0000001193
 51
135.0
  0
LINE
  8
0
 62
0
 10
-6.63088745518
 20
-14.5286796613
 30
0.0
 11
-8.97066448597
 21
-16.8684566921
 31
0.0
  0
ARC
  8
0
 62
0
 10
-8.41912119665
 20
-17.4199999814
 30
0.0
 40
0.779999999999
 50
135.0
 51
-90.0000206428
  0
LINE
  8
0
 62
0
 10
-8.41912147767
 20
-18.1999999814
 30
0.0
 11
-6.24999989191
 21
-18.2000007629
 31
0.0
  0
ARC
  8
0
 62
0
 10
-6.25
 20
-18.5000007629
 30
0.0
 40
0.300000000003
 50
-0.0
 51
89.9999793565
  0
LINE
  8
0
 62
0
 10
-5.95
 20
-18.5000007629
 30
0.0
 11
-5.95
 21
-19.2
 31
0.0
  0
ARC
  8
0
 62
0
 10
-6.75
 20
-19.2
 30
0.0
 40
0.800000000002
 50
-89.9999999998
 51
-0.0
  0
LINE
  8
0
 62
0
 10
-6.75
 20
-20.0
 30
0.0
 11
-11.375
 21
-20.0
 31
0.0
  0
ARC
  8
0
 62
0
 10
-11.375
 20
-18.0
 30
0.0
 40
2.0
 50
-180.0
 51
-90.0
  0
LINE
  8
0
 62
0
 10
-13.375
 20
-18.0
 30
0.0
 11
-13.375
 21
-13.375
 31
0.0
  0
ARC
  8
0
 62
0
 10
-12.575
 20
-13.375
 30
0.0
 40
0.799999999998
 50
89.9999999995
 51
-180.0
  0
LINE
  8
0
 62
0
 10
-12.575
 20
-12.575
 30
0.0
 11
-11.8750007629
 21
-12.575
 31
0.0
  0
ARC
  8
0
 62
0
 10
-11.8750007629
 20
-12.875
 30
0.0
 40
0.299999999998
 50
2.07907469165e-05
 51
90.0
  0
LINE
  8
0
 62
0
 10
-11.5750007629
 20
-12.8749998911
 30
0.0
 11
-11.5749999754
 21
-15.0441214738
 31
0.0
  0
ARC
  8
0
 62
0
 10
-10.7949999754
 20
-15.0441211906
 30
0.0
 40
0.779999999999
 50
-179.999979192
 51
-45.0000000002
  0
LINE
  8
0
 62
0
 10
-10.2434566861
 20
-15.5956644799
 30
0.0
 11
-7.90367965659
 21
-13.2558874505
 31
0.0
  0
ARC
  8
0
 62
0
 10
-10.0250000002
 20
-11.1345671069
 30
0.0
 40
3.00000000001
 50
-45.0
 51
0.0
  0
LINE
  8
0
 62
0
 10
-7.02500000016
 20
-11.1345671007
 30
0.0
 11
-7.02500000488
 21
-8.86543288213
 31
0.0
  0
ARC
  8
0
 62
0
 10
-10.0250000049
 20
-8.86543288837
 30
0.0
 40
2.99999999999
 50
0.0
 51
45.0000000001
  0
LINE
  8
0
 62
0
 10
-7.90367966132
 20
-6.74411254482
 30
0.0
 11
-10.2434566921
 21
-4.40433551403
 31
0.0
  0
ARC
  8
0
 62
0
 10
-10.7949999814
 20
-4.95587880335
 30
0.0
 40
0.779999999999
 50
45.0
 51
179.99997935
  0
LINE
  8
0
 62
0
 10
-11.5749999814
 20
-4.95587852233
 30
0.0
 11
-11.5750007629
 21
-7.12500010809
 31
0.0
  0
ARC
  8
0
 62
0
 10
-11.8750007629
 20
-7.12500000001
 30
0.0
 40
0.299999999999
 50
-90.0
 51
-2.06500295844e-05
  0
LINE
  8
0
 62
0
 10
-11.8750007629
 20
-7.425
 30
0.0
 11
-12.575
 21
-7.425
 31
0.0
  0
ARC
  8
0
 62
0
 10
-12.575
 20
-6.625
 30
0.0
 40
0.8
 50
180.0
 51
-90.0
  0
LINE
  8
0
 62
0
 10
-13.375
 20
-6.625
 30
0.0
 11
-13.375
 21
-2.0
 31
0.0
  0
ARC
  8
0
 62
0
 10
-11.375
 20
-2.0
 30
0.0
 40
2.0
 50
90.0
 51
-180.0
  0
LINE
  8
0
 62
0
 10
-11.375
 20
0.0
 30
0.0
 11
-6.75
 21
0.0
 31
0.0
  0
ARC
  8
0
 62
0
 10
-6.75
 20
-0.799999999999
 30
0.0
 40
0.8
 50
0.0
 51
90.0
  0
LINE
  8
0
 62
0
 10
-5.95
 20
-0.799999999999
 30
0.0
 11
-5.95
 21
-1.49999923706
 31
0.0
  0
ARC
  8
0
 62
0
 10
-6.25
 20
-1.49999923706
 30
0.0
 40
0.300000000001
 50
-89.9999791967
 51
0.0
  0
LINE
  8
0
 62
0
 10
-6.24999989107
 20
-1.79999923706
 30
0.0
 11
-8.4191214738
 21
-1.8000000246
 31
0.0
  0
ARC
  8
0
 62
0
 10
-8.41912119061
 20
-2.5800000246
 30
0.0
 40
0.780000000001
 50
90.0000208023
 51
-135.0
  0
LINE
  8
0
 62
0
 10
-8.97066447993
 20
-3.13154331393
 30
0.0
 11
-6.63088745046
 21
-5.4713203434
 31
0.0
  0
ARC
  8
0
 62
0
 10
-4.5095671069
 20
-3.34999999984
 30
0.0
 40
3.0
 50
-135.0
 51
-89.9999998808
  0
LINE
  8
0
 62
0
 10
-4.50956710066
 20
-6.34999999984
 30
0.0
 11
-2.24043288214
 21
-6.34999999512
 31
0.0
  0
ARC
  8
0
 62
0
 10
-2.24043288838
 20
-3.34999999512
 30
0.0
 40
3.0
 50
-89.9999998808
 51
-45.0
  0
LINE
  8
0
 62
0
 10
-0.119112544817
 20
-5.47132033868
 30
0.0
 11
2.22066448598
 21
-3.1315433079
 31
0.0
  0
ARC
  8
0
 62
0
 10
1.66912119665
 20
-2.58000001857
 30
0.0
 40
0.779999999999
 50
-45.0000000002
 51
89.9999793577
  0
LINE
  8
0
 62
0
 10
1.66912147767
 20
-1.80000001857
 30
0.0
 11
-0.500000108084
 21
-1.79999923706
 31
0.0
  0
ARC
  8
0
 62
0
 10
-0.500000000011
 20
-1.49999923707
 30
0.0
 40
0.299999999994
 50
180.0
 51
-90.0000206404
  0
LINE
  8
0
 62
0
 10
-0.799999999999
 20
-1.49999923706
 30
0.0
 11
-0.799999999999
 21
-0.799999999999
 31
0.0
  0
ARC
  8
0
 62
0
 10
9.09508579561e-12
 20
-0.800000000006
 30
0.0
 40
0.800000000005
 50
90.0000000007
 51
180.0
  0
LINE
  8
0
 62
0
 10
0.0
 20
0.0
 30
0.0
 11
4.625
 21
0.0
 31
0.0
  0
ARC
  8
0
 62
0
 10
4.625
 20
-2.0
 30
0.0
 40
2.0
 50
0.0
 51
90.0
  0
LINE
  8
0
 62
0
 10
6.625
 20
-2.0
 30
0.0
 11
6.625
 21
-6.625
 31
0.0
  0
ARC
  8
0
 62
0
 10
5.825
 20
-6.625
 30
0.0
 40
0.799999999996
 50
-90.0
 51
0.0
  0
LINE
  8
0
 62
0
 10
5.825
 20
-7.425
 30
0.0
 11
5.12500076294
 21
-7.425
 31
0.0
  0
ARC
  8
0
 62
0
 10
5.12500076294
 20
-7.125
 30
0.0
 40
0.300000000001
 50
-179.999979209
 51
-90.0
  0
LINE
  8
0
 62
0
 10
4.82500076294
 20
-7.12500010892
 30
0.0
 11
4.82499997539
 21
-4.9558785262
 31
0.0
  0
ARC
  8
0
 62
0
 10
4.04499997539
 20
-4.95587880939
 30
0.0
 40
0.779999999999
 50
2.0808269673e-05
 51
135.0
  0
LINE
  8
0
 62
0
 10
3.49345668607
 20
-4.40433552007
 30
0.0
 11
1.1536796566
 21
-6.74411254954
 31
0.0
  0
ARC
  8
0
 62
0
 10
3.27500000014
 20
-8.8654328931
 30
0.0
 40
2.99999999999
 50
135.0
 51
-180.0
  0
ENDBLK
  0
ENDSEC
  0
SECTION
  2
ENTITIES
  0
INSERT
  2
PART__FEATURE
  8
0
 62
0
 10
0.0
 20
0.0
 30
0.0
  0
ENDSEC
  0
EOF
